ISO-10303-21;
HEADER;
FILE_DESCRIPTION(('Creo Elements/Direct Modeling STEP Export'),'2;1');
FILE_NAME('5401801_Fangstange-101_ALU-1500.stp','2019-12-20T11:05:34',(
''),(''),
'Creo Elements/Direct Modeling STEP processor for AP214 (Solid Model)',
'Creo Elements/Direct Modeling 18.0B  02-Dec-2011 (C) Parametric Technol
ogy GmbH','');
FILE_SCHEMA(('AUTOMOTIVE_DESIGN { 1 0 10303 214 1 1 1 1 }'));
ENDSEC;
DATA;
#10=CARTESIAN_POINT('',(92.9260948933602,32.3870783145326,1542.5));
#20=DIRECTION('',(0.,0.,1.));
#30=DIRECTION('',(1.,0.,0.));
#40=AXIS2_PLACEMENT_3D('',#10,#20,#30);
#50=PLANE('',#40);
#60=CARTESIAN_POINT('',(53.8913049999999,49.166149,1542.5));
#70=DIRECTION('',(0.,0.,1.));
#80=DIRECTION('',(1.,0.,0.));
#90=AXIS2_PLACEMENT_3D('',#60,#70,#80);
#100=CIRCLE('',#90,0.0499999999999972);
#110=CARTESIAN_POINT('',(53.9413049999999,49.166149,1542.5));
#120=VERTEX_POINT('',#110);
#130=CARTESIAN_POINT('',(53.8413049999999,49.166149,1542.5));
#140=VERTEX_POINT('',#130);
#150=EDGE_CURVE('',#120,#140,#100,.T.);
#160=ORIENTED_EDGE('',*,*,#150,.T.);
#170=EDGE_CURVE('',#140,#120,#100,.T.);
#180=ORIENTED_EDGE('',*,*,#170,.T.);
#190=EDGE_LOOP('',(#180,#160));
#200=FACE_OUTER_BOUND('',#190,.T.);
#210=ADVANCED_FACE('',(#200),#50,.T.);
#220=CARTESIAN_POINT('',(53.8913049999999,49.166149,1534.55));
#230=DIRECTION('',(0.,0.,1.));
#240=DIRECTION('',(1.,0.,0.));
#250=AXIS2_PLACEMENT_3D('',#220,#230,#240);
#260=DEGENERATE_TOROIDAL_SURFACE('',#250,0.0499999999999972,7.95,.T.);
#270=CARTESIAN_POINT('',(53.9413049999999,49.166149,1534.55));
#280=DIRECTION('',(0.,1.,0.));
#290=DIRECTION('',(1.,0.,0.));
#300=AXIS2_PLACEMENT_3D('',#270,#280,#290);
#310=CIRCLE('',#300,7.95);
#320=CARTESIAN_POINT('',(61.8913049999999,49.166149,1534.55));
#330=VERTEX_POINT('',#320);
#340=EDGE_CURVE('',#120,#330,#310,.T.);
#350=ORIENTED_EDGE('',*,*,#340,.F.);
#360=CARTESIAN_POINT('',(53.8913049999999,49.166149,1534.55));
#370=DIRECTION('',(0.,0.,1.));
#380=DIRECTION('',(1.,0.,0.));
#390=AXIS2_PLACEMENT_3D('',#360,#370,#380);
#400=CIRCLE('',#390,8.);
#410=CARTESIAN_POINT('',(45.8913049999999,49.166149,1534.55));
#420=VERTEX_POINT('',#410);
#430=EDGE_CURVE('',#420,#330,#400,.T.);
#440=ORIENTED_EDGE('',*,*,#430,.T.);
#450=CARTESIAN_POINT('',(53.8413049999999,49.166149,1534.55));
#460=DIRECTION('',(0.,-1.,0.));
#470=DIRECTION('',(-1.,0.,0.));
#480=AXIS2_PLACEMENT_3D('',#450,#460,#470);
#490=CIRCLE('',#480,7.95);
#500=EDGE_CURVE('',#140,#420,#490,.T.);
#510=ORIENTED_EDGE('',*,*,#500,.T.);
#520=ORIENTED_EDGE('',*,*,#170,.F.);
#530=EDGE_LOOP('',(#520,#510,#440,#350));
#540=FACE_OUTER_BOUND('',#530,.T.);
#550=ADVANCED_FACE('',(#540),#260,.T.);
#560=CARTESIAN_POINT('',(53.8913049999999,49.166149,1534.55));
#570=DIRECTION('',(0.,0.,1.));
#580=DIRECTION('',(1.,0.,0.));
#590=AXIS2_PLACEMENT_3D('',#560,#570,#580);
#600=DEGENERATE_TOROIDAL_SURFACE('',#590,0.0499999999999972,7.95,.T.);
#610=ORIENTED_EDGE('',*,*,#150,.F.);
#620=ORIENTED_EDGE('',*,*,#500,.F.);
#630=EDGE_CURVE('',#330,#420,#400,.T.);
#640=ORIENTED_EDGE('',*,*,#630,.T.);
#650=ORIENTED_EDGE('',*,*,#340,.T.);
#660=EDGE_LOOP('',(#650,#640,#620,#610));
#670=FACE_OUTER_BOUND('',#660,.T.);
#680=ADVANCED_FACE('',(#670),#600,.T.);
#690=CARTESIAN_POINT('',(53.8913049999999,49.166149,83.5));
#700=DIRECTION('',(0.,0.,1.));
#710=DIRECTION('',(-1.,0.,0.));
#720=AXIS2_PLACEMENT_3D('',#690,#700,#710);
#730=CYLINDRICAL_SURFACE('',#720,8.);
#740=CARTESIAN_POINT('',(45.8913049999999,49.166149,83.5));
#750=DIRECTION('',(0.,0.,1.));
#760=VECTOR('',#750,1.);
#770=LINE('',#740,#760);
#780=CARTESIAN_POINT('',(45.8913049999999,49.166149,42.));
#790=VERTEX_POINT('',#780);
#800=EDGE_CURVE('',#790,#420,#770,.T.);
#810=ORIENTED_EDGE('',*,*,#800,.F.);
#820=ORIENTED_EDGE('',*,*,#430,.F.);
#830=CARTESIAN_POINT('',(61.8913049999999,49.166149,83.5));
#840=DIRECTION('',(0.,0.,1.));
#850=VECTOR('',#840,1.);
#860=LINE('',#830,#850);
#870=CARTESIAN_POINT('',(61.8913049999999,49.166149,42.));
#880=VERTEX_POINT('',#870);
#890=EDGE_CURVE('',#880,#330,#860,.T.);
#900=ORIENTED_EDGE('',*,*,#890,.T.);
#910=CARTESIAN_POINT('',(53.8913049999999,49.166149,42.));
#920=DIRECTION('',(0.,0.,1.));
#930=DIRECTION('',(1.,0.,0.));
#940=AXIS2_PLACEMENT_3D('',#910,#920,#930);
#950=CIRCLE('',#940,8.);
#960=EDGE_CURVE('',#790,#880,#950,.T.);
#970=ORIENTED_EDGE('',*,*,#960,.T.);
#980=EDGE_LOOP('',(#970,#900,#820,#810));
#990=FACE_OUTER_BOUND('',#980,.T.);
#1000=ADVANCED_FACE('',(#990),#730,.T.);
#1010=CARTESIAN_POINT('',(53.8912871273635,53.166149,41.));
#1020=DIRECTION('',(-0.,-0.,-1.));
#1030=DIRECTION('',(0.,-1.,0.));
#1040=AXIS2_PLACEMENT_3D('',#1010,#1020,#1030);
#1050=PLANE('',#1040);
#1060=CARTESIAN_POINT('',(53.8913049999999,49.166149,41.));
#1070=DIRECTION('',(0.,0.,1.));
#1080=DIRECTION('',(1.,0.,0.));
#1090=AXIS2_PLACEMENT_3D('',#1060,#1070,#1080);
#1100=CIRCLE('',#1090,7.);
#1110=CARTESIAN_POINT('',(46.8913049999999,49.166149,41.));
#1120=VERTEX_POINT('',#1110);
#1130=CARTESIAN_POINT('',(60.8913049999999,49.166149,41.));
#1140=VERTEX_POINT('',#1130);
#1150=EDGE_CURVE('',#1120,#1140,#1100,.T.);
#1160=ORIENTED_EDGE('',*,*,#1150,.F.);
#1170=EDGE_CURVE('',#1140,#1120,#1100,.T.);
#1180=ORIENTED_EDGE('',*,*,#1170,.F.);
#1190=EDGE_LOOP('',(#1180,#1160));
#1200=FACE_OUTER_BOUND('',#1190,.T.);
#1210=ADVANCED_FACE('',(#1200),#1050,.T.);
#1220=CARTESIAN_POINT('',(53.8913049999999,49.166149,42.));
#1230=DIRECTION('',(0.,0.,1.));
#1240=DIRECTION('',(1.,0.,0.));
#1250=AXIS2_PLACEMENT_3D('',#1220,#1230,#1240);
#1260=CONICAL_SURFACE('',#1250,8.,0.785398163397448);
#1270=CARTESIAN_POINT('',(61.8913049999999,49.166149,42.));
#1280=DIRECTION('',(0.707106781186548,0.,0.707106781186548));
#1290=VECTOR('',#1280,11.3137084989848);
#1300=LINE('',#1270,#1290);
#1310=EDGE_CURVE('',#1140,#880,#1300,.T.);
#1320=ORIENTED_EDGE('',*,*,#1310,.T.);
#1330=ORIENTED_EDGE('',*,*,#1150,.T.);
#1340=CARTESIAN_POINT('',(45.8913049999999,49.166149,42.));
#1350=DIRECTION('',(-0.707106781186548,0.,0.707106781186548));
#1360=VECTOR('',#1350,11.3137084989848);
#1370=LINE('',#1340,#1360);
#1380=EDGE_CURVE('',#1120,#790,#1370,.T.);
#1390=ORIENTED_EDGE('',*,*,#1380,.F.);
#1400=ORIENTED_EDGE('',*,*,#960,.F.);
#1410=EDGE_LOOP('',(#1400,#1390,#1330,#1320));
#1420=FACE_OUTER_BOUND('',#1410,.T.);
#1430=ADVANCED_FACE('',(#1420),#1260,.T.);
#1440=CARTESIAN_POINT('',(53.8913049999999,49.166149,83.5));
#1450=DIRECTION('',(0.,0.,1.));
#1460=DIRECTION('',(-1.,0.,0.));
#1470=AXIS2_PLACEMENT_3D('',#1440,#1450,#1460);
#1480=CYLINDRICAL_SURFACE('',#1470,8.);
#1490=EDGE_CURVE('',#880,#790,#950,.T.);
#1500=ORIENTED_EDGE('',*,*,#1490,.T.);
#1510=ORIENTED_EDGE('',*,*,#890,.F.);
#1520=ORIENTED_EDGE('',*,*,#630,.F.);
#1530=ORIENTED_EDGE('',*,*,#800,.T.);
#1540=EDGE_LOOP('',(#1530,#1520,#1510,#1500));
#1550=FACE_OUTER_BOUND('',#1540,.T.);
#1560=ADVANCED_FACE('',(#1550),#1480,.T.);
#1570=CARTESIAN_POINT('',(53.8913049999999,49.166149,42.));
#1580=DIRECTION('',(0.,0.,1.));
#1590=DIRECTION('',(1.,0.,0.));
#1600=AXIS2_PLACEMENT_3D('',#1570,#1580,#1590);
#1610=CONICAL_SURFACE('',#1600,8.,0.785398163397448);
#1620=ORIENTED_EDGE('',*,*,#1310,.F.);
#1630=ORIENTED_EDGE('',*,*,#1490,.F.);
#1640=ORIENTED_EDGE('',*,*,#1380,.T.);
#1650=ORIENTED_EDGE('',*,*,#1170,.T.);
#1660=EDGE_LOOP('',(#1650,#1640,#1630,#1620));
#1670=FACE_OUTER_BOUND('',#1660,.T.);
#1680=ADVANCED_FACE('',(#1670),#1610,.T.);
#1690=CLOSED_SHELL('',(#1000,#1210,#1430,#1560,#1680,#210,#550,#680));
#1700=MANIFOLD_SOLID_BREP('',#1690);
#1710=CARTESIAN_POINT('',(0.,0.,0.));
#1720=DIRECTION('',(0.,0.,1.));
#1730=DIRECTION('',(1.,0.,0.));
#1740=AXIS2_PLACEMENT_3D('',#1710,#1720,#1730);
#1750=APPLICATION_CONTEXT(' ');
#1760=APPLICATION_PROTOCOL_DEFINITION(' ','automotive_design',1998,#1750
);
#1770=PRODUCT_CONTEXT('',#1750,'mechanical');
#1780=PRODUCT_DEFINITION_CONTEXT('part definition',#1750,'design');
#1790=PRODUCT('Fangstange','Fangstange','',(#1770));
#1800=PRODUCT_RELATED_PRODUCT_CATEGORY('part',' ',(#1790));
#1810=PRODUCT_DEFINITION_FORMATION_WITH_SPECIFIED_SOURCE('','',#1790,
.BOUGHT.);
#1820=PRODUCT_DEFINITION('',' ',#1810,#1780);
#1830=PRODUCT_DEFINITION_SHAPE('','',#1820);
#1840=DIMENSIONAL_EXPONENTS(1.,0.,0.,0.,0.,0.,0.);
#1850=DIMENSIONAL_EXPONENTS(0.,0.,0.,0.,0.,0.,0.);
#1860=DIMENSIONAL_EXPONENTS(0.,0.,0.,0.,0.,0.,0.);
#1870=(LENGTH_UNIT() NAMED_UNIT(*) SI_UNIT(.MILLI.,.METRE.));
#1880=(NAMED_UNIT(*) PLANE_ANGLE_UNIT() SI_UNIT($,.RADIAN.));
#1890=(NAMED_UNIT(*) SI_UNIT($,.STERADIAN.) SOLID_ANGLE_UNIT());
#1900=(GEOMETRIC_REPRESENTATION_CONTEXT(3) 
GLOBAL_UNCERTAINTY_ASSIGNED_CONTEXT((#1910)) 
GLOBAL_UNIT_ASSIGNED_CONTEXT((#1870,#1880,#1890)) REPRESENTATION_CONTEXT
('',''));
#1910=UNCERTAINTY_MEASURE_WITH_UNIT(LENGTH_MEASURE(0.001),#1870,
'distance_accuracy_value','maximum gap value');
#1920=ADVANCED_BREP_SHAPE_REPRESENTATION('',(#1740,#1700),#1900);
#1930=SHAPE_DEFINITION_REPRESENTATION(#1830,#1920);
#1940=COLOUR_RGB('',0.701960802078247,0.701960802078247,
0.701960802078247);
#1950=FILL_AREA_STYLE_COLOUR('',#1940);
#1960=FILL_AREA_STYLE('',(#1950));
#1970=SURFACE_STYLE_FILL_AREA(#1960);
#1980=SURFACE_SIDE_STYLE('',(#1970));
#1990=SURFACE_STYLE_USAGE(.BOTH.,#1980);
#2000=PRESENTATION_STYLE_ASSIGNMENT((#1990));
#2010=STYLED_ITEM('',(#2000),#1700);
#2020=DRAUGHTING_MODEL('',(#2010),#1900);
ENDSEC;
END-ISO-10303-21;
