ISO-10303-21;
HEADER;
FILE_DESCRIPTION (( 'STEP AP214' ),
    '1' );
FILE_NAME ('2046595.stp',
    '2022-02-25T07:24:27',
    ( '' ),
    ( '' ),
    'SwSTEP 2.0',
    'SolidWorks 2020',
    '' );
FILE_SCHEMA (( 'AUTOMOTIVE_DESIGN' ));
ENDSEC;

DATA;
#1 = DIRECTION ( 'NONE',  ( 1.000000000000000000, 0.000000000000000000, -0.000000000000000000 ) ) ;
#2 = EDGE_CURVE ( 'NONE', #186, #186, #211, .T. ) ;
#3 = CARTESIAN_POINT ( 'NONE',  ( 12.50000000000000000, 0.000000000000000000, -2999.849999999999909 ) ) ;
#4 = AXIS2_PLACEMENT_3D ( 'NONE', #53, #88, #117 ) ;
#5 = AXIS2_PLACEMENT_3D ( 'NONE', #121, #198, #89 ) ;
#6 =( LENGTH_UNIT ( ) NAMED_UNIT ( * ) SI_UNIT ( .MILLI., .METRE. ) );
#7 = FACE_OUTER_BOUND ( 'NONE', #212, .T. ) ;
#8 = MANIFOLD_SOLID_BREP ( 'Verrundung1', #84 ) ;
#9 = AXIS2_PLACEMENT_3D ( 'NONE', #148, #159, #131 ) ;
#10 = SHAPE_DEFINITION_REPRESENTATION ( #14, #28 ) ;
#11 = AXIS2_PLACEMENT_3D ( 'NONE', #165, #17, #38 ) ;
#12 = CARTESIAN_POINT ( 'NONE',  ( 0.000000000000000000, 0.000000000000000000, -0.1500000000000945022 ) ) ;
#13 = CIRCLE ( 'NONE', #104, 12.34999999999999964 ) ;
#14 = PRODUCT_DEFINITION_SHAPE ( 'NONE', 'NONE',  #208 ) ;
#15 = EDGE_LOOP ( 'NONE', ( #99 ) ) ;
#16 = ORIENTED_EDGE ( 'NONE', *, *, #109, .F. ) ;
#17 = DIRECTION ( 'NONE',  ( 0.000000000000000000, 0.000000000000000000, 1.000000000000000000 ) ) ;
#18 = ORIENTED_EDGE ( 'NONE', *, *, #207, .T. ) ;
#19 = CARTESIAN_POINT ( 'NONE',  ( 0.000000000000000000, 0.000000000000000000, -0.1500000000000945022 ) ) ;
#20 = VERTEX_POINT ( 'NONE', #123 ) ;
#21 = DIRECTION ( 'NONE',  ( 0.000000000000000000, 0.000000000000000000, 1.000000000000000000 ) ) ;
#22 = CARTESIAN_POINT ( 'NONE',  ( 11.25000000000000178, 0.000000000000000000, -2999.849999999999909 ) ) ;
#23 = CARTESIAN_POINT ( 'NONE',  ( 0.000000000000000000, 0.000000000000000000, -3000.000000000000000 ) ) ;
#24 = DIRECTION ( 'NONE',  ( 0.000000000000000000, 0.000000000000000000, 1.000000000000000000 ) ) ;
#25 = DIRECTION ( 'NONE',  ( 1.000000000000000000, 0.000000000000000000, 0.000000000000000000 ) ) ;
#26 = APPLICATION_PROTOCOL_DEFINITION ( 'draft international standard', 'automotive_design', 1998, #67 ) ;
#27 = DIRECTION ( 'NONE',  ( 0.000000000000000000, 0.000000000000000000, 1.000000000000000000 ) ) ;
#28 = ADVANCED_BREP_SHAPE_REPRESENTATION ( '2046595', ( #8, #93 ), #30 ) ;
#29 = AXIS2_PLACEMENT_3D ( 'NONE', #12, #111, #177 ) ;
#30 =( GEOMETRIC_REPRESENTATION_CONTEXT ( 3 ) GLOBAL_UNCERTAINTY_ASSIGNED_CONTEXT ( ( #139 ) ) GLOBAL_UNIT_ASSIGNED_CONTEXT ( ( #6, #167, #51 ) ) REPRESENTATION_CONTEXT ( 'NONE', 'WORKASPACE' ) );
#31 = FILL_AREA_STYLE_COLOUR ( '', #50 ) ;
#32 = EDGE_LOOP ( 'NONE', ( #87 ) ) ;
#33 = ORIENTED_EDGE ( 'NONE', *, *, #156, .F. ) ;
#34 = ADVANCED_FACE ( 'NONE', ( #7, #143 ), #43, .T. ) ;
#35 = DIRECTION ( 'NONE',  ( -0.000000000000000000, -0.000000000000000000, -1.000000000000000000 ) ) ;
#36 = ORIENTED_EDGE ( 'NONE', *, *, #95, .F. ) ;
#37 = VERTEX_POINT ( 'NONE', #57 ) ;
#38 = DIRECTION ( 'NONE',  ( 1.000000000000000000, 0.000000000000000000, 0.000000000000000000 ) ) ;
#39 = VERTEX_POINT ( 'NONE', #103 ) ;
#40 =( NAMED_UNIT ( * ) SI_UNIT ( $, .STERADIAN. ) SOLID_ANGLE_UNIT ( ) );
#41 = ADVANCED_FACE ( 'NONE', ( #200, #62 ), #125, .T. ) ;
#42 = AXIS2_PLACEMENT_3D ( 'NONE', #209, #191, #176 ) ;
#43 = CYLINDRICAL_SURFACE ( 'NONE', #144, 12.50000000000000000 ) ;
#44 = CARTESIAN_POINT ( 'NONE',  ( 0.000000000000000000, 0.000000000000000000, 0.000000000000000000 ) ) ;
#45 = DIRECTION ( 'NONE',  ( 1.000000000000000000, 0.000000000000000000, 0.000000000000000000 ) ) ;
#46 = DIRECTION ( 'NONE',  ( 0.000000000000000000, 0.000000000000000000, 1.000000000000000000 ) ) ;
#47 = PRODUCT_CONTEXT ( 'NONE', #67, 'mechanical' ) ;
#48 = FACE_OUTER_BOUND ( 'NONE', #162, .T. ) ;
#49 = AXIS2_PLACEMENT_3D ( 'NONE', #127, #82, #146 ) ;
#50 = COLOUR_RGB ( '',0.7529411764705882248, 0.7529411764705882248, 0.7529411764705882248 ) ;
#51 =( NAMED_UNIT ( * ) SI_UNIT ( $, .STERADIAN. ) SOLID_ANGLE_UNIT ( ) );
#52 = EDGE_LOOP ( 'NONE', ( #180 ) ) ;
#53 = CARTESIAN_POINT ( 'NONE',  ( 0.000000000000000000, 0.000000000000000000, -2999.849999999999909 ) ) ;
#54 = EDGE_LOOP ( 'NONE', ( #183 ) ) ;
#55 = EDGE_LOOP ( 'NONE', ( #36 ) ) ;
#56 = DIRECTION ( 'NONE',  ( 1.000000000000000000, 0.000000000000000000, 0.000000000000000000 ) ) ;
#57 = CARTESIAN_POINT ( 'NONE',  ( 11.40000000000000213, 0.000000000000000000, -3000.000000000000000 ) ) ;
#58 = CARTESIAN_POINT ( 'NONE',  ( 11.40000000000000213, 0.000000000000000000, 0.000000000000000000 ) ) ;
#59 = AXIS2_PLACEMENT_3D ( 'NONE', #204, #92, #64 ) ;
#60 =( NAMED_UNIT ( * ) SI_UNIT ( $, .STERADIAN. ) SOLID_ANGLE_UNIT ( ) );
#61 = ADVANCED_FACE ( 'NONE', ( #147, #66 ), #113, .T. ) ;
#62 = FACE_BOUND ( 'NONE', #98, .T. ) ;
#63 = CIRCLE ( 'NONE', #90, 12.50000000000000000 ) ;
#64 = DIRECTION ( 'NONE',  ( 1.000000000000000000, 0.000000000000000000, 0.000000000000000000 ) ) ;
#65 = DIRECTION ( 'NONE',  ( 1.000000000000000000, 0.000000000000000000, 0.000000000000000000 ) ) ;
#66 = FACE_OUTER_BOUND ( 'NONE', #163, .T. ) ;
#67 = APPLICATION_CONTEXT ( 'automotive_design' ) ;
#68 = PRODUCT_DEFINITION_FORMATION_WITH_SPECIFIED_SOURCE ( 'ANY', '', #193, .NOT_KNOWN. ) ;
#69 = ORIENTED_EDGE ( 'NONE', *, *, #150, .T. ) ;
#70 = ORIENTED_EDGE ( 'NONE', *, *, #76, .F. ) ;
#71 = FACE_OUTER_BOUND ( 'NONE', #52, .T. ) ;
#72 = FACE_OUTER_BOUND ( 'NONE', #55, .T. ) ;
#73 = CIRCLE ( 'NONE', #97, 11.40000000000000213 ) ;
#74 = CARTESIAN_POINT ( 'NONE',  ( 0.000000000000000000, 0.000000000000000000, -2999.849999999999909 ) ) ;
#75 = DIRECTION ( 'NONE',  ( 0.000000000000000000, 0.000000000000000000, 1.000000000000000000 ) ) ;
#76 = EDGE_CURVE ( 'NONE', #119, #119, #179, .T. ) ;
#77 = DIRECTION ( 'NONE',  ( 0.000000000000000000, 0.000000000000000000, 1.000000000000000000 ) ) ;
#78 =( NAMED_UNIT ( * ) PLANE_ANGLE_UNIT ( ) SI_UNIT ( $, .RADIAN. ) );
#79 = AXIS2_PLACEMENT_3D ( 'NONE', #112, #46, #25 ) ;
#80 = APPLICATION_PROTOCOL_DEFINITION ( 'draft international standard', 'automotive_design', 1998, #170 ) ;
#81 = TOROIDAL_SURFACE ( 'NONE', #187, 11.40000000000000213, 0.1499999999999999944 ) ;
#82 = DIRECTION ( 'NONE',  ( 0.000000000000000000, 0.000000000000000000, 1.000000000000000000 ) ) ;
#83 = ADVANCED_FACE ( 'NONE', ( #206, #48 ), #160, .T. ) ;
#84 = CLOSED_SHELL ( 'NONE', ( #34, #178, #41, #171, #61, #190, #83, #136 ) ) ;
#85 = EDGE_LOOP ( 'NONE', ( #213 ) ) ;
#86 = FACE_OUTER_BOUND ( 'NONE', #54, .T. ) ;
#87 = ORIENTED_EDGE ( 'NONE', *, *, #95, .T. ) ;
#88 = DIRECTION ( 'NONE',  ( -0.000000000000000000, -0.000000000000000000, -1.000000000000000000 ) ) ;
#89 = DIRECTION ( 'NONE',  ( 1.000000000000000000, 0.000000000000000000, 0.000000000000000000 ) ) ;
#90 = AXIS2_PLACEMENT_3D ( 'NONE', #94, #27, #65 ) ;
#91 =( NAMED_UNIT ( * ) PLANE_ANGLE_UNIT ( ) SI_UNIT ( $, .RADIAN. ) );
#92 = DIRECTION ( 'NONE',  ( -0.000000000000000000, -0.000000000000000000, -1.000000000000000000 ) ) ;
#93 = AXIS2_PLACEMENT_3D ( 'NONE', #44, #24, #45 ) ;
#94 = CARTESIAN_POINT ( 'NONE',  ( 0.000000000000000000, 0.000000000000000000, -2999.849999999999909 ) ) ;
#95 = EDGE_CURVE ( 'NONE', #37, #37, #73, .T. ) ;
#96 = DIRECTION ( 'NONE',  ( 1.000000000000000000, 0.000000000000000000, 0.000000000000000000 ) ) ;
#97 = AXIS2_PLACEMENT_3D ( 'NONE', #130, #158, #96 ) ;
#98 = EDGE_LOOP ( 'NONE', ( #196 ) ) ;
#99 = ORIENTED_EDGE ( 'NONE', *, *, #150, .F. ) ;
#100 = CYLINDRICAL_SURFACE ( 'NONE', #11, 11.25000000000000178 ) ;
#101 = VERTEX_POINT ( 'NONE', #22 ) ;
#102 = DIRECTION ( 'NONE',  ( 0.000000000000000000, 0.000000000000000000, 1.000000000000000000 ) ) ;
#103 = CARTESIAN_POINT ( 'NONE',  ( 12.34999999999999964, 0.000000000000000000, -3000.000000000000000 ) ) ;
#104 = AXIS2_PLACEMENT_3D ( 'NONE', #120, #35, #56 ) ;
#105 = PRESENTATION_LAYER_ASSIGNMENT (  '', '', ( #194 ) ) ;
#106 = FILL_AREA_STYLE_COLOUR ( '', #175 ) ;
#107 = SURFACE_STYLE_FILL_AREA ( #173 ) ;
#108 = MECHANICAL_DESIGN_GEOMETRIC_PRESENTATION_REPRESENTATION (  '', ( #122 ), #169 ) ;
#109 = EDGE_CURVE ( 'NONE', #20, #20, #128, .T. ) ;
#110 = EDGE_CURVE ( 'NONE', #140, #140, #63, .T. ) ;
#111 = DIRECTION ( 'NONE',  ( 0.000000000000000000, 0.000000000000000000, 1.000000000000000000 ) ) ;
#112 = CARTESIAN_POINT ( 'NONE',  ( 0.000000000000000000, 0.000000000000000000, -0.1500000000000945022 ) ) ;
#113 = TOROIDAL_SURFACE ( 'NONE', #9, 12.34999999999999964, 0.1499999999999999944 ) ;
#114 = ORIENTED_EDGE ( 'NONE', *, *, #2, .F. ) ;
#115 = EDGE_LOOP ( 'NONE', ( #18 ) ) ;
#116 = EDGE_LOOP ( 'NONE', ( #69 ) ) ;
#117 = DIRECTION ( 'NONE',  ( 1.000000000000000000, 0.000000000000000000, 0.000000000000000000 ) ) ;
#118 = PRODUCT_DEFINITION_CONTEXT ( 'detailed design', #170, 'design' ) ;
#119 = VERTEX_POINT ( 'NONE', #58 ) ;
#120 = CARTESIAN_POINT ( 'NONE',  ( 0.000000000000000000, 0.000000000000000000, -3000.000000000000000 ) ) ;
#121 = CARTESIAN_POINT ( 'NONE',  ( 0.000000000000000000, 0.000000000000000000, 0.000000000000000000 ) ) ;
#122 = STYLED_ITEM ( 'NONE', ( #202 ), #8 ) ;
#123 = CARTESIAN_POINT ( 'NONE',  ( 11.25000000000000178, 0.000000000000000000, -0.1500000000000945022 ) ) ;
#124 = SURFACE_SIDE_STYLE ('',( #201 ) ) ;
#125 = PLANE ( 'NONE',  #49 ) ;
#126 = SURFACE_STYLE_USAGE ( .BOTH. , #174 ) ;
#127 = CARTESIAN_POINT ( 'NONE',  ( 0.000000000000000000, 0.000000000000000000, 0.000000000000000000 ) ) ;
#128 = CIRCLE ( 'NONE', #79, 11.25000000000000178 ) ;
#129 = MECHANICAL_DESIGN_GEOMETRIC_PRESENTATION_REPRESENTATION (  '', ( #194 ), #155 ) ;
#130 = CARTESIAN_POINT ( 'NONE',  ( 0.000000000000000000, 0.000000000000000000, -3000.000000000000000 ) ) ;
#131 = DIRECTION ( 'NONE',  ( 1.000000000000000000, 0.000000000000000000, 0.000000000000000000 ) ) ;
#132 = AXIS2_PLACEMENT_3D ( 'NONE', #19, #21, #182 ) ;
#133 = FILL_AREA_STYLE ('',( #31 ) ) ;
#134 = EDGE_LOOP ( 'NONE', ( #70 ) ) ;
#135 = FACE_OUTER_BOUND ( 'NONE', #164, .T. ) ;
#136 = ADVANCED_FACE ( 'NONE', ( #189, #135 ), #203, .T. ) ;
#137 = EDGE_LOOP ( 'NONE', ( #33 ) ) ;
#138 = FACE_OUTER_BOUND ( 'NONE', #15, .T. ) ;
#139 = UNCERTAINTY_MEASURE_WITH_UNIT (LENGTH_MEASURE( 1.000000000000000082E-05 ), #6, 'distance_accuracy_value', 'NONE');
#140 = VERTEX_POINT ( 'NONE', #3 ) ;
#141 = DIRECTION ( 'NONE',  ( 1.000000000000000000, 0.000000000000000000, 0.000000000000000000 ) ) ;
#142 = SURFACE_STYLE_USAGE ( .BOTH. , #124 ) ;
#143 = FACE_OUTER_BOUND ( 'NONE', #85, .T. ) ;
#144 = AXIS2_PLACEMENT_3D ( 'NONE', #23, #77, #141 ) ;
#145 = CIRCLE ( 'NONE', #5, 12.34999999999999964 ) ;
#146 = DIRECTION ( 'NONE',  ( 1.000000000000000000, 0.000000000000000000, -0.000000000000000000 ) ) ;
#147 = FACE_OUTER_BOUND ( 'NONE', #137, .T. ) ;
#148 = CARTESIAN_POINT ( 'NONE',  ( 0.000000000000000000, 0.000000000000000000, -2999.849999999999909 ) ) ;
#149 = ORIENTED_EDGE ( 'NONE', *, *, #110, .T. ) ;
#150 = EDGE_CURVE ( 'NONE', #101, #101, #192, .T. ) ;
#151 = FACE_BOUND ( 'NONE', #32, .T. ) ;
#152 = UNCERTAINTY_MEASURE_WITH_UNIT (LENGTH_MEASURE( 1.000000000000000082E-05 ), #157, 'distance_accuracy_value', 'NONE');
#153 = CARTESIAN_POINT ( 'NONE',  ( 0.000000000000000000, 0.000000000000000000, -3000.000000000000000 ) ) ;
#154 = CARTESIAN_POINT ( 'NONE',  ( 12.50000000000000000, 0.000000000000000000, -0.1500000000000945022 ) ) ;
#155 =( GEOMETRIC_REPRESENTATION_CONTEXT ( 3 ) GLOBAL_UNCERTAINTY_ASSIGNED_CONTEXT ( ( #210 ) ) GLOBAL_UNIT_ASSIGNED_CONTEXT ( ( #172, #78, #60 ) ) REPRESENTATION_CONTEXT ( 'NONE', 'WORKASPACE' ) );
#156 = EDGE_CURVE ( 'NONE', #39, #39, #13, .T. ) ;
#157 =( LENGTH_UNIT ( ) NAMED_UNIT ( * ) SI_UNIT ( .MILLI., .METRE. ) );
#158 = DIRECTION ( 'NONE',  ( 0.000000000000000000, 0.000000000000000000, 1.000000000000000000 ) ) ;
#159 = DIRECTION ( 'NONE',  ( 0.000000000000000000, 0.000000000000000000, 1.000000000000000000 ) ) ;
#160 = TOROIDAL_SURFACE ( 'NONE', #29, 12.34999999999999964, 0.1499999999999999944 ) ;
#161 = PRODUCT_RELATED_PRODUCT_CATEGORY ( 'part', '', ( #193 ) ) ;
#162 = EDGE_LOOP ( 'NONE', ( #195 ) ) ;
#163 = EDGE_LOOP ( 'NONE', ( #181 ) ) ;
#164 = EDGE_LOOP ( 'NONE', ( #16 ) ) ;
#165 = CARTESIAN_POINT ( 'NONE',  ( 0.000000000000000000, 0.000000000000000000, -3000.000000000000000 ) ) ;
#166 = VERTEX_POINT ( 'NONE', #168 ) ;
#167 =( NAMED_UNIT ( * ) PLANE_ANGLE_UNIT ( ) SI_UNIT ( $, .RADIAN. ) );
#168 = CARTESIAN_POINT ( 'NONE',  ( 12.34999999999999964, 0.000000000000000000, 0.000000000000000000 ) ) ;
#169 =( GEOMETRIC_REPRESENTATION_CONTEXT ( 3 ) GLOBAL_UNCERTAINTY_ASSIGNED_CONTEXT ( ( #152 ) ) GLOBAL_UNIT_ASSIGNED_CONTEXT ( ( #157, #91, #40 ) ) REPRESENTATION_CONTEXT ( 'NONE', 'WORKASPACE' ) );
#170 = APPLICATION_CONTEXT ( 'automotive_design' ) ;
#171 = ADVANCED_FACE ( 'NONE', ( #197, #71 ), #100, .F. ) ;
#172 =( LENGTH_UNIT ( ) NAMED_UNIT ( * ) SI_UNIT ( .MILLI., .METRE. ) );
#173 = FILL_AREA_STYLE ('',( #106 ) ) ;
#174 = SURFACE_SIDE_STYLE ('',( #107 ) ) ;
#175 = COLOUR_RGB ( '',0.7529411764705882248, 0.7529411764705882248, 0.7529411764705882248 ) ;
#176 = DIRECTION ( 'NONE',  ( 1.000000000000000000, 0.000000000000000000, 0.000000000000000000 ) ) ;
#177 = DIRECTION ( 'NONE',  ( 1.000000000000000000, 0.000000000000000000, 0.000000000000000000 ) ) ;
#178 = ADVANCED_FACE ( 'NONE', ( #86, #151 ), #185, .F. ) ;
#179 = CIRCLE ( 'NONE', #42, 11.40000000000000213 ) ;
#180 = ORIENTED_EDGE ( 'NONE', *, *, #109, .T. ) ;
#181 = ORIENTED_EDGE ( 'NONE', *, *, #110, .F. ) ;
#182 = DIRECTION ( 'NONE',  ( 1.000000000000000000, 0.000000000000000000, 0.000000000000000000 ) ) ;
#183 = ORIENTED_EDGE ( 'NONE', *, *, #156, .T. ) ;
#184 = DIRECTION ( 'NONE',  ( 1.000000000000000000, 0.000000000000000000, 0.000000000000000000 ) ) ;
#185 = PLANE ( 'NONE',  #205 ) ;
#186 = VERTEX_POINT ( 'NONE', #154 ) ;
#187 = AXIS2_PLACEMENT_3D ( 'NONE', #74, #75, #184 ) ;
#188 = PRESENTATION_STYLE_ASSIGNMENT (( #142 ) ) ;
#189 = FACE_OUTER_BOUND ( 'NONE', #134, .T. ) ;
#190 = ADVANCED_FACE ( 'NONE', ( #138, #72 ), #81, .T. ) ;
#191 = DIRECTION ( 'NONE',  ( -0.000000000000000000, -0.000000000000000000, -1.000000000000000000 ) ) ;
#192 = CIRCLE ( 'NONE', #4, 11.25000000000000178 ) ;
#193 = PRODUCT ( '2046595', '2046595', '', ( #47 ) ) ;
#194 = STYLED_ITEM ( 'NONE', ( #188 ), #28 ) ;
#195 = ORIENTED_EDGE ( 'NONE', *, *, #207, .F. ) ;
#196 = ORIENTED_EDGE ( 'NONE', *, *, #76, .T. ) ;
#197 = FACE_OUTER_BOUND ( 'NONE', #116, .T. ) ;
#198 = DIRECTION ( 'NONE',  ( 0.000000000000000000, 0.000000000000000000, 1.000000000000000000 ) ) ;
#199 = PRESENTATION_LAYER_ASSIGNMENT (  '', '', ( #122 ) ) ;
#200 = FACE_OUTER_BOUND ( 'NONE', #115, .T. ) ;
#201 = SURFACE_STYLE_FILL_AREA ( #133 ) ;
#202 = PRESENTATION_STYLE_ASSIGNMENT (( #126 ) ) ;
#203 = TOROIDAL_SURFACE ( 'NONE', #132, 11.40000000000000213, 0.1499999999999999944 ) ;
#204 = CARTESIAN_POINT ( 'NONE',  ( 0.000000000000000000, 0.000000000000000000, -0.1500000000000945022 ) ) ;
#205 = AXIS2_PLACEMENT_3D ( 'NONE', #153, #102, #1 ) ;
#206 = FACE_OUTER_BOUND ( 'NONE', #214, .T. ) ;
#207 = EDGE_CURVE ( 'NONE', #166, #166, #145, .T. ) ;
#208 = PRODUCT_DEFINITION ( 'UNKNOWN', '', #68, #118 ) ;
#209 = CARTESIAN_POINT ( 'NONE',  ( 0.000000000000000000, 0.000000000000000000, 0.000000000000000000 ) ) ;
#210 = UNCERTAINTY_MEASURE_WITH_UNIT (LENGTH_MEASURE( 1.000000000000000082E-05 ), #172, 'distance_accuracy_value', 'NONE');
#211 = CIRCLE ( 'NONE', #59, 12.50000000000000000 ) ;
#212 = EDGE_LOOP ( 'NONE', ( #149 ) ) ;
#213 = ORIENTED_EDGE ( 'NONE', *, *, #2, .T. ) ;
#214 = EDGE_LOOP ( 'NONE', ( #114 ) ) ;
ENDSEC;
END-ISO-10303-21;
